About Phlux

Home : Discography : Songs : Blue

Blue
Copyright © 2000 Cody Phipps

The sun came out today she smiled at me
Will I get my way I'll have to wait and see

I want so much to touch you
I want to brighten your blue
You blew me away every way you satisfy
Your blue green shades every time I see your eyes

I've got myself to give I hope its enough
I've only got one life to live live with you good stuff

I want so much to touch you
I want to brighten your blue
You blew me away every way you satisfy
Your blue green shades every time I see your eyes

I want so much to touch you
I want to brighten You
blew me away every way you satisfy
Your blue green shades every time I see your eyes

Notes

#----------------------------------PLEASE NOTE--------------------------------#
#This file is the author's own work and represents their interpretation of the#
#song. You may only use this file for private study, scholarship, or research.#
#-----------------------------------------------------------------------------#
#-- File created with Instab - http://www.pconline.com/~smcarey/instab.html --#
#-----------------------------------------------------------------------------#

Author/Artist: Phlux
Title: "Blue"
Album: The Negative Album
Transcribed by: Josh King
Email: Metallica_844@hotmail.com

-----------------|-------------------|----------------------------------------
-----------------|-------------------|----------------------------------------
-----------------|-------------------|----------------------------------------
-----------------|-------------------|----------------------------------------
-----11b-----5-0-|-----11b------12---|----------------------------------------
-0-0-0---0-0-----|-0-0-0---0-10----10|----------------------------------------
 Intro Riff    x3                4th time                                     

------------------|------------------|----------------------------------------
------------------|------------------|----------------------------------------
------------------|------------------|----------------------------------------
------------------|------------------|----------------------------------------
-----11b------5-0-|----11b------12---|----------------------------------------
-0-0-0----0-0-----|0-0-0---0-10----10|----------------------------------------
 pm--     pm-----  pm--   pm                                                  

-----------------------------------------------------------------|------------
-----------------------------------------------------------------|------------
-7-7-7-7-7-7-7-7-------------------------------------------------|------------
-7-7-7-7-7-7-7-7--7-7-7-7-7-7-7-7-----7-6------------7-6---------|------------
-5-5-5-5-5-5-5-5--7-7-7-7-7-7-7-7---------7-5---5--------7-5----5|------------
------------------5-5-5-5-5-5-5-5--0----------0----0----------0--|------------
  "I want so much to touch you"    (Prechorus)                     repeat     

----------------------------------------------------------|---------|---------
----------------------------------------------------------|---------|---------
----------4-4-4-4--------------------7-7-7-7-7-7-7-7--4-4-|6-6-6-6-6|-2-------
-4-4-4-4--4-4-4-4--6-6-6--7-7-7-7-7--7-7-7-7-7-7-7-7--4-4-|6-6-6-6-6|-2----5--
-2-2-2-2--2-2-2-2--6-6-6--7-7-7-7-7--5-5-5-5-5-5-5-5--2-2-|4-4-4-4-4|-0--7--7-
-0-0-0-0-----------4-4-4--5-5-5-5-5-----------------------|---------|---------
 Chorus Riff                                               1st time  2nd      

--------------------------------|------------------------------|--------------
--------------9br---------------|------------------------------|--------------
-7-9-9-7-9-7-------7-9-9-7-9----|------------------------------|--------------
-----------------------------7-6|-7-4---7-4---7-4---7-4--------|--------------
--------------------------------|-----5-----5-----5-----5--5-5-|--------------
--------------------------------|------------------------------|--------------
 after second chorus, with Wah-wah *                          x2              

-----------------------------|------------------------------------------------
-----------------------------|------------------------------------------------
-----------------------------|------------------------------------------------
-------------6-b-------------|------------------------------------------------
--5--7-5-7-5------7-5-7------|------------------------------------------------
------------------------7--7-|------------------------------------------------
                               repeat from * 4 times, then go to prechorus    


On Albums

Listen

  • Blue (MP3) - 30 second clip. Copyright © 2000 Cody Phipps

webmaster@phlux.net